dumdedumdum, here are some gc tabs. i will put more up soon... these tabs are a combo of ones from mxtabs.net, punkhardcore.com, and my own corrections etc.

little things
e|- main riff -------------------|
B|-------------------------------|
G|--66666------------------------|
D|--66666--6-6/5---44444--7-7/6--|
A|--44444--6-6/5---44444--7-7/6--|
E|---------4-4/3---22222--5-5/4--|

e|- chorus -----------------------------|
B|--------------------------------------|
G|--66666666----------------------------|
D|--66666666-66666666-44444444-77777777-|
A|--44444444-66666666-44444444-77777777-|
E|-----------44444444-22222222-55555555-|

e|-- post chorus ----------------------------------|
B|-------------------------------------------------|
G|-------------------------------------------------|
D|44444-777-44444-777-44444-777-44444-777-8-9-10-11|
A|44444-777-44444-777-44444-777-44444-777-8-9-10-11|
E|22222-555-22222-555-22222-555-22222-555-6-7-8--9-|

order:
riff 4x
riff (just bass) 6x
riff 2x
chorus 4x
post chorus
riff 2x
bass 4x
riff 2x
chorus 4x
post chorus
chorus 4x
bass 2x

waldorf worldwide
this isnt a hard song, but it looks complex w/o the lyrics.
chords:
e|-D#-F---A#-G#-G-|
B|----------------|
G|–8--10–---------|
D|–8--10--8--6--5-|
A|–6--8---8--6--5-|
E|--------6--4--3-|

Intro
e|----------------------------------------------------|
B|---------11----------10------------8----------8h10—-|
G|-----10-----xxxx-10-----10------8-----8----10-------|
D|—8---------------------------8-----------8----------|
A|----------------------------------------------------|
E|----------------------------------------------------|

e|--------------------------------------------------|
B|---------11---------10-----------8----------------|
G|-----10----xxxx-10-----10-----8-------10–10–10–10-|
D|—8-------------------------8----------10–10–10–10—|
A|--------------------------------------8—-8--8—-8—-|
E|--------------------------------------------------|

verse (w/wah wah. i don’t have a pedal so i just use upstrokes...)
also chorus (dist)
e|-------------------------------|
B|-------------------------------|
G|------10–10---8--8—---10–10----|
D|—8–8—-10–10---8--8—---10–10----|
A|—8–8—-8—-8----6--6----8—-8-----|
E|—6–6---------------------------|

bridge. each chord 4x. all power chords
D# D# F F A# G# G G
D# D# F F A# A# G G
D# D# F F

order:
intro
chorus 2x. hit A#, let ring
no gtr for a little while...
verse 4x
chorus 4x
bass thing 2x
intro 3/4 of the way thru
verse 3 1/2 times
chorus 4x
bridge
chorus 2x
chorus 3/4 of the way thru
chorus x4