GC TABS... i don't know if these are totally correct. these tabs are a combination of a bunch i've found. look on the links; my tab resources are on there, i think... the only one i know is right is "walk by" because benji showed me at the video shoot for "the click." hehe.
<3amy

"the click"
note: exact # of strums not shown. i'm just giving you the chords... figure it out, it's not hard :)
intro:
e|- guitar one ----------------------------------------------|
B|-|------ part one ------------------|------ part two-------|
G|-----------------------------------------------------------|
D|--0-2-4-2--0-2-4-2--0-2-4-2-4-5-4-2----0-2-4-2--0-2-4-2-0~~|
A|-----------------------------------------------------------|
E|-----------------------------------------------------------|

e|- guitar two ----------------------------------------------|
B|-(D)------(A)------(G)-------------------------------------|
G|--7------------------------------------7-------------------|
D|--7--------7--------5------------------7--------7-------5--|
A|--5--------7--------5------------------5--------7-------5--|
E|-----------5--------3---------------------------5-------3--|

verse:............chorus:.....................bridge:
e|--------------||--------------------------||--------------|
B|--------------||--------------------------||--------------|
G|--7-----------||--7-----------7-----------||--7-----------|
D|--7--7--5--5--||--7--7--9--5--7--7--5--5--||--7--7--5--5--|
A|--5--7--5--5--||--5--7--9--5--5--7--5--5--||--5--7--5--5--|
E|-----5--3--3--||-----5--7--3-----5--3--3--||-----5--3--3--|
verse notes: pm gtr 1. halfway through, gtr 2 plays intro riff.
bridge notes: 2nd time, play the G for a while...

ending:
e|----------------------------------------------------|
B|----------------------------------------------------|
G|-7-----------------------------------7--------------|
D|-7--------7-----------5-----4-5-4-2--7--------------|
A|-5--------7-----------5--------------5--------------|
E|----------5-----------3-----------------------------|

song structure:
whole intro 2x
verse 4x
chorus 2x
whole intro 1x
verse 4x
chorus 2x
bridge 4x
chorus 2x (hit chords then deaden)
part one of intro 4x
ending

"i heard you"
this song is easy... i don't know the notes at the beginning -- whenever i do it, it sounds weird. lol. i'll just give you the chords because they're the only chords the song uses -- just slow it down for the bridge.
e|---------------|
B|---------------|
G|--5-----9--10--|
D|--5--5--9--10--|
A|--3--5--7--8---|
E|-----3---------|

more tabs coming soon. <3amy